If you are searching for Ánh Nắng Mặt Trời ukulele chords, you’ve visit to the right place.
You can play versatile instrument Ánh Nắng Mặt Trời using ukulele or guitar.
This song by Những Đứa Trẻ can also be played by that instruments.
=

Ánh Nắng Mặt Trời chords has rhythm and included in album.
You can also find other musical style, including jazz ukulele chords, country music ukulele chords, pop ukulele chords, world music ukulele chords, and rock ukulele chords here.

Ánh Nắng Mặt Trời by Những Đứa Trẻ Ukulele Chords


Có những câu chuyện đã qua
Có những khúc ca gần xa mây trời
Có những con đường dài tháng năm
Nơi mà ta vô tư khi ngày mai đến
 
Với những giấc mơ từ ngày đầu tiên
Cất tiếng hát lên cùng với cây đàn
Ánh nắng vỡ tan như giọt sương rơi
Ánh nắng mặt trời

Hòa tan cùng ánh nắng mặt trời

Và em là ánh nắng mặt trời
 
Có những khúc ca trong bình minh
Có những khát khao từ trong trái tim mình
Đến với những ai đang chờ mong
Âm nhạc ngân vang lên như ngàn tia sáng
 
Với những giai điệu của thời gian
Cất tiếng hát lên cùng với cây đàn
Ánh nắng vỡ tan như giọt sương rơi
Ánh nắng mặt trời

Hòa tan cùng ánh nắng mặt trời

Và em là ánh nắng mặt trời

Hòa tan cùng ánh nắng mặt trời

Em là ánh nắng mặt trời
 
Em mang theo câu hát
Em mang theo những ước mơ
Em mang theo bao nhiêu khát vọng
Em là ánh nắng mặt trời
Em mang theo câu hát
Em mang theo những tháng năm dài
Em mang theo bao nhiêu khát vọng
Em là ánh nắng mặt trời

Hòa tan cùng ánh nắng mặt trời
Và em là ánh nắng mặt trời
Em mang theo câu hát
Em mang theo những ước mơ
Em mang theo bao nhiêu khát vọng
Em là ánh nắng mặt trời
Em là ánh nắng mặt trời
Em là ánh nắng mặt trời

To play the this songs, including Ánh Nắng Mặt Trời by Những Đứa Trẻ by ukulele, the most crucial basic ukulele chords to learn are C chord, D chord, G chord, and Em chord.
These set you up to play a many of songs, and each of them is easy to master.

If you are looking for Roxanne ukulele chords, you have come to the right place.
You can play versatile instrument Roxanne using ukulele or guitar.
This song by The Police can also be played by that instruments.
=

Roxanne chords has rhythm and included in Outlandos d’Amour (1978) album.
You can also find other musical genres, including jazz ukulele chords, country music ukulele chords, pop ukulele chords, world music ukulele chords, and rock ukulele chords here.

Roxanne by The Police Ukulele Chords


I love this cover… Dilana is awesome!!!

Hold chords like this:

Fm# – x44200
Emaj – 022100
Dmaj – x00230
[-]
Amaj [-]- 002200

vocal solo intro:

Roxanne

you don’t have to put on that red light

those days are over,

you don’t have to

sell your body to the night

Roxanne
You don’t have to wear that dress tonight
you walk the streets for money
you don’t care if it’s wrong or if it’s right
Roxanne
Cm7# (ap.1) Fm# (ap.2)
you dont have to put on the red light
Roxanne, yeah
you dont have to put on the red light
I love u since i knew you
i wouldn’t talk down to you
i tell you once, I won’t tell u again
it’s the bad way
Roxanne
You don’t have to put on the red light
Roxanne
You don’t have to put on the red light (sing it boys)

(Roxanne)
put on the red light

(Roxanne)
put on the red light

(Roxanne)
you don’t have to put on the red light

(Roxanne)
Put on the red light

Roxanne, Roxanne, Roxanne, Roxanne

ap.1 – for this part lift and return your finger off the second string

so that it would look like this: e|—4–4–4—|
B|—5–4–5—|
G|—4–4–4—|
D|—6–6–6—|
A|—4–4–4—|
E|—4–4–4—|

ap.2 – here you only play this part (Don’t let ring)

This part is like a build-up: e|————-|
B|————-|
G|———-6–|
D|-4–6–7–6–|
A|-4–6–7–4–|
E|-2–4–5—–|

I think that should cover it

E-mail me with your comments @ Tulgovski@yahoo.com

To play the this songs, including Roxanne by The Police by ukulele, the most crucial basic ukulele chords to learn are C chord, D chord, G chord, and Em chord.
These set you up to play a ton of songs, and each of them is easy to master.

If you are searching for Starting Over for the Last Time ukulele chords, you already come to the right place.
You can play versatile instrument Starting Over for the Last Time using ukulele or guitar.
This song by Randy Rogers Band can also be played by that instruments.
=

Starting Over for the Last Time chords has rhythm and included in Burning the Day (2010) album.
You can also get another musical genres, including jazz ukulele chords, country music ukulele chords, pop ukulele chords, world music ukulele chords, and rock ukulele chords here.

Starting Over for the Last Time by Randy Rogers Band Ukulele Chords


By Randy Rogers Band

Intro G Bm A G Bm A

Verse 1
Say goodbye to your old friends and wish them well
The summer sun has set for the last time but you don’t mind
It won’t be easy and you can tell it hurts like hell
But there’s a brand new world somewhere else

Chorus
You gotta run like you’ve never run before
Up ahead there’s so much more
Than the life you left behind
You gotta go, throw caution to the wind
You’ll never get this chance again
You’ll find a new place to hide
Starting over for the last time


Verse 2
A burning box of memories I can’t put out
It just seemed easier to me to let it be
One more night in this old house and there’s not doubt
That before too long I’ll be gone, gone, gone

Repeat Chorus

Bridge
Over and over again a brand new start
Well, I’m gonna try to forget where you are

Break A D A Bm G A D A G

Repeat Chorus
Starting over for the last time
Starting over for the last time
Starting over for the last time

To play the this songs, including Starting Over for the Last Time by Randy Rogers Band by ukulele, the most important basic ukulele chords to learn are C chord, D chord, G chord, and Em chord.
These set you up to play a many of songs, and each of them is easy to learn.

If you are searching for River of Love ukulele chords, you have come to the best place.
You can play versatile instrument River of Love using ukulele or guitar.
This song by Rick Price can also be played by that instruments.
=

River of Love chords has rhythm and included in Other Songs album.
You can also get other musical style, including jazz ukulele chords, country music ukulele chords, pop ukulele chords, world music ukulele chords, and rock ukulele chords here.

River of Love by Rick Price Ukulele Chords


-----------------------------------------------------------------------------

RIVER OF LOVE – Rick Price


-----------------------------------------------------------------------------

Tabbed by: Rogan
E-mail: eagleeye_79@hotmail.com

Tuning: Standard

I couldn’t find chords for this song anywhere so I just threw this together.
Hopefully if anyone knows better they can post the amendments. Cheers for reading, and
I hope you enjoy.

CHORDS:
I think Rick uses these base chord formations (and does a lot of swanky stuff around
them). You can drop the low E to D and barre straight across the bottom three strings if
you like.


e|---x-----x-----0-----2-----x------x---------|
B|---5-----3-----1-----0---- 10-----8---------|
G|---4-----2-----0-----2-----9------7---------|
D|---2-----0-----2-----1-----7------5---------|
A|---2-----0-----3-----2-----7------5---------|
E|---x-----x-----x-----x-----x------x---------|

I personally find the following formations a bit easier (or nicer) for accompaniment
purposes (C and B7 remain unchanged):


e|---0-----0-------5-----3---------|
B|---0-----3-------5-----3---------|
G|---0-----2-------x-----x---------|
D|---2-----0-------7-----5---------|
A|---2-----0-------7-----5---------|
E|---0-----x-------x-----x---------|

In the chorus you can slide the C up to Dadd11 if you like, that works just fine. I
just prefer the Dsus.


-----------------------------------------------------------------------------

[Verse 1]:

When I’m in trouble; When I’m sinking down
Caught up in this struggle; Stuck out on the wrong side of town
Lord I know You won’t forsake me; You help me rise above
Let Your Spirit take me down; To the river of love

:
Wash my soul in Your water
Turn me around
And I’ll surrender all like I oughta
When I go down


To the river of lo-ove
River of lo-ove
Take me down, down down
To the river of love

[Verse 2]:
Dip my hands in Your water; So cool and clear
Pouring down from the altar; There’s healing here
Lord I know You won’t forsake me; You help me rise above
Let Your Spirit take me down; To the river of love


To play the most songs, including River of Love by Rick Price by ukulele, the most crucial basic ukulele chords to learn are C chord, D chord, G chord, and Em chord.
These set you up to play a many of songs, and each of them is easy to master.

If you are looking for Not Going to Give It Back ukulele chords, you have visit to the best place.
You can play versatile instrument Not Going to Give It Back using ukulele or guitar.
This song by Peggy Seeger can also be played by that instruments.
=

Not Going to Give It Back chords has rhythm and included in Naming of Names album.
You can also find other musical genres, including jazz ukulele chords, country music ukulele chords, pop ukulele chords, world music ukulele chords, and rock ukulele chords here.

Not Going to Give It Back by Peggy Seeger Ukulele Chords


Peggy Seeger – Not Going To Give It Back
http://www.youtube.com/watch?vXYqD65ofSv4

NB Original is unaccompanied, but sung a tone below this,
ie chords to match it would be Bb/(ch)Bb7/F(/ch)/(ch)F7/Eb(/ch)/Eb7.

Oh, we worked and we fought for the little that’s ours
And we’re not gonna give it back
While you ride around in a Rolls Royce car
And we’re not gonna give it back
You take away our bread and butter while you’re drinking wine
And you send out the cops against the picket line
You tried it before but I swear this time
We’re not gonna give it back

Chorus:
No we’re not gonna give it back
We’re not gonna give it back
We’re not gonna give it back, no fear
We’re not gonna give it back

Well, you want our wages and our benefits too
But we’re not gonna give it back
To make less for us and more for you
And we’re not gonna give it back
Your profits are higher than they’ve ever been
The economy’s a mess ‘cos you’re greedy as sin
And you never will care what shape we’re in
And we’re not gonna give it back

Chorus

We won the right to bargain and the right to strike
And we’re not gonna give it back
Now you think you can cancel them whenever you like
And we’re not gonna give it back
Listen while I tell you ’bout the rich and poor
It’s what my momma told me all about the class war
And it’s mighty plain to see what the union’s for
And we’re not gonna give it back

Chorus

It’s the same old story ’bout the wealthy few
Getting rich off the worker’s back
You divide us up by giving jobs to two
While another two get the sack
Up to now you’ve had your ride for free
But we’ll put a picket line around the whole country
And we’ll set up a banner for the world to see
That says you’re never gonna get it back

End-Chorus x 2:
No you’re never gonna get it back
You’re never gonna get it back
You’re never gonna get it back, no fear
You’re never gonna get it back

To play the most songs, including Not Going to Give It Back by Peggy Seeger by ukulele, the most important basic ukulele chords to learn are C chord, D chord, G chord, and Em chord.
These set you up to play a many of songs, and each of them is easy to master.

If you are looking for Beretta ukulele chords, you’ve come to the right place.
You can play versatile instrument Beretta using ukulele or guitar.
This song by Turn can also be played by that instruments.
=

Beretta chords has rhythm and included in Antisocial (2000) album.
You can also find another musical style, including jazz ukulele chords, country music ukulele chords, pop ukulele chords, world music ukulele chords, and rock ukulele chords here.

Beretta by Turn Ukulele Chords


Track: Beretta
Album: Antisocial
Tabbed by: Robert Corcoran

I’ve seen some poor attempts at this but fear not I’ll try to make amends enjoy…
Verse 1: Electric guitar (clean)


e----------------------------------------------------------------------|
b----------------------------------------------------------------------|
g----------------------------------------------------------------------|
d----------------------------------------------------------------------|
a-4-4-4-4-4-4-4-4-----------------0-0-0-0-0-0-0-0----------------------|
e-----------------2-2-2-2-2-2-2-2-----------------4-4-4-4-4-4-4-4-4----|

Sometimes Ollie throws in this little progression at the end…


e----------------------------------------------------------------------|
b----------------------------------------------------------------------|
g----------------------------------------------------------------------|
d----------------------------------------------------------------------|
a-4-4-4-4-4-4-4-4-----------------0-0-0-0-0-0-0-0-----------2-2-2------|
e-----------------2-2-2-2-2-2-2-2-----------------4-4-4-4-4------------|

Chorus: Repeat what’s inside the lines twice…

WHY CAN’T YOU LOOK AFTER YOURSELF…


e--------2----------------0---|-----------------------------------------|
b--------2----------------0---|-5-5-------------------------------------|
g--------3----------------1---|-6-6--9-9-11-11-12-12-11-11-11-11-9-9-9-9|
d--------4----------------2---|-6-6--x-x-x--x--x--x--x—-x--x--x--x-x-x-x|
a--------4----------------2---|-4-4--7-7-9--9--10-10-9—-9--9--9--7-7-7-7|
e--------2----------------0---|-----------------------------------------|

…cuz it’s always you and me…

Post Chorus:


e-16----16----16----16--------|
b----14----14----14----14-----|
g-----------------------------|
d-----------------------------|
a-----------------------------|
e-----------------------------|

( Tab from: http://www.guitartabs.cc/tabs/t/turn/beretta_tab.html )
Verse 2:


e----------------------------------------------------------------------|
b----------------------------------------------------------------------|
g----------------------------------------------------------------------|
d-3-3-3-3-3-3-3-3------------------------------------------------------|
a-4-4-4-4-4-4-4-4-4-4-4-4-4-4-4-4-4-4-4-4-4-4-4-4-3-3-3-3-3-3-3-3-3----|
e-----------------2-2-2-2-2-2-2-2-5-5-5-5-5-5-5-5-4-4-4-4-4-4-4-4-4----|

Last time play it this way…


e----------------------------------------------------------------------|
b----------------------------------------------------------------------|
g----------------------------------------------------------------------|
d-3-3-3-3-3-3-3-3------------------------------------------------------|
a-4-4-4-4-4-4-4-4-4-4-4-4-4-4-4-4-7-7-7-7-7-7-7-7-3-3-3-3-3-3-3-3-3----|
e-----------------2-2-2-2-2-2-2-2-5-5-5-5-5-5-5-5-4-4-4-4-4-4-4-4-4----|

Chorus 2 is the same as chorus 1 except instead of a post chorus there’s this…


e|-------------------------------| |e-----------------------------------|
b|-------------------------------| |b-9-9-9-9-9-9-9-9-7-7-7-7-7-7-7-7---|
g|9-9-9-9-9-9-9-9-8-8-8-8-8-8-8-8|x2|g-9-9-9-9-9-9-9-9-8-8-8-8-8-8-8-8---|x2
d|-------------------------------| |d-----------------------------------|
a|-------------------------------| |a-----------------------------------|
e|-------------------------------| |e-----------------------------------|

Then Guitar 1 plays this twice Guitar 2 plays this over it and continues over…


e|-------------------------| |e-16----16----16----16----16----|
b|-5-5---------------------| |b----14----14----14----14----14-|
g|-6-6--9-9-11-11-12-12-12-| |g-------------------------------|
d|-6-6--x-x-x--x--x--x--x—-| |d-------------------------------|
a|-4-4--7-7-9--9--10-10-10-| |a-------------------------------|
e|-------------------------| |e-------------------------------|

WHY CAN’T YOU LOOK AFTER YOURSELF…

Then play the chorus twice before returning to this…


e|-------------------------| |e-16----16----16----16----16----|
b|-5-5---------------------| |b----14----14----14----14----14-|
g|-6-6--9-9-11-11-12-12-12-| |g-------------------------------|
d|-6-6--x-x-x--x--x--x--x—-| |d-------------------------------|
a|-4-4--7-7-9--9--10-10-10-| |a-------------------------------|
e|-------------------------| |e-------------------------------|

This is played a few times and it ends like…


e|-------------------------|
b|-5-5---------------------|
g|-6-6--9-9-9-11-----------|
d|-6-6--x-x-x-x------------|
a|-4-4--7-7-7-9------------|
e|-------------------------|

Why can’t you look out?

And that’s about it. If there are any corrections, gifts or good-looking sisters for me you can contact me via my e-mail: inthenameofbob@hotmail.com. Grá mor, peace out…

To play the this songs, including Beretta by Turn by ukulele, the most important basic ukulele chords to learn are C chord, D chord, G chord, and Em chord.
These set you up to play a a lot of songs, and each of them is easy to learn.

If you are searching for Angel Song ukulele chords, you’ve visit to the right place.
You can play versatile instrument Angel Song using ukulele or guitar.
This song by Desperation Band can also be played by that instruments.
=

Angel Song chords has rhythm and included in Light Up the World (2009) album.
You can also get another musical style, including jazz ukulele chords, country music ukulele chords, pop ukulele chords, world music ukulele chords, and rock ukulele chords here.

Angel Song by Desperation Band Ukulele Chords


INTRO
D2, Asus/C#, Asus/C, G2
(repeat intro)

VERSE 1
Can you hear the[Asus/C#] sound, the sound of ange[Asus/C]ls singing, the sound of angel?s songs?
Let us join the sound, le[Asus/C#]t us join the singing, let us j[Asus/C]oin the song.
CHORUS
Holy, holy is the Lord. Holy is the Lord. Holy is the Lord.

VERSE 2
Can you hear t[Asus/C#]he sound, the sound of chi[Asus/C]ldren singing, the sound of children?s songs?
Let us join t[Asus/C#]he sound, let us join the s[Asus/C]inging, let us join the song.

CHORUS
Holy, holy is the Lord. Holy is the Lord. Holy is the Lord.
(repeat chorus twice)

BRIDGE
We join the angels? symphony, let it be heard over all the earth.
We join the heavens as the sing.

CHORUS
Holy, holy is the Lord. Holy is the Lord. Holy is the Lord.
(repeat chorus)

INSTRUMENTAL (GUITAR SOLO)
Bm7, A, G, Em7

To play the this songs, including Angel Song by Desperation Band by ukulele, the most important basic ukulele chords to learn are C chord, D chord, G chord, and Em chord.
These set you up to play a many of songs, and each of them is easy to learn.

If you are searching for Our King Has Come ukulele chords, you’ve visit to the best place.
You can play versatile instrument Our King Has Come using ukulele or guitar.
This song by Elevation Worship can also be played by that instruments.
=

Our King Has Come chords has rhythm and included in God With Us (2009) album.
You can also get other musical genres, including jazz ukulele chords, country music ukulele chords, pop ukulele chords, world music ukulele chords, and rock ukulele chords here.

Our King Has Come by Elevation Worship Ukulele Chords


Our King has come ? Elevation Worship
By Jesper Sloth

The whole song: atleast at the ?For the Honor? record.

He is alive and we are free
He is alive and we have found our peace
Our King has come[G-Am-G]

To play the most songs, including Our King Has Come by Elevation Worship by ukulele, the most crucial basic ukulele chords to learn are C chord, D chord, G chord, and Em chord.
These set you up to play a ton of songs, and each of them is easy to master.

If you are looking for King Contrary Man ukulele chords, you already come to the right place.
You can play versatile instrument King Contrary Man using ukulele or guitar.
This song by The Cult can also be played by that instruments.
=

King Contrary Man chords has rhythm and included in Electric (1987) album.
You can also find another musical genres, including jazz ukulele chords, country music ukulele chords, pop ukulele chords, world music ukulele chords, and rock ukulele chords here.

King Contrary Man by The Cult Ukulele Chords


Intro Slide


E------------------|
B------------------|
G------------------|
D------------------|
A------------------|
E-----5/10-103----|

Intro Riff

Guitar 1 only


E------------------|------------------|------------------|------------------|
B------------------|------------------|------------------|------------------|
G------------------|------------------|------------------|------------------|
D-2----5-----------|-2----5-----------|-2----5-----------|-7---7-5--7--5----|
A-2----5-----------|-2----5-----------|-2----5-----------|-7---7-5--7--5----|
E-0----3----5-6-7--|-0----3----5-6-7--|-0----3----5-6-7--|-5---5-3--5--3----|

Guitar 1 (And the rest of the band enter here)


E------------------|------------------|------------------|------------------|
B------------------|------------------|------------------|------------------|
G------------------|------------------|------------------|------------------|
D-2---5------------|-2---5------------|-2---5------------|-7---7-5--7--5----|
A-2---5------------|-2---5------------|-2---5------------|-7---7-5--7--5----|
E-0---3---5-6-7----|-0---3---5-6-7----|-0---3---5-6-7----|-5---5-3--5--3----|

| | | |
Guitar 2 | | | |
| | | |


E------------------|------------------|------------------|------------------|
B------------------|------------------|------------------|------------------|
G------------------|------------------|------------------|------------------|
D-2-------2--------|-2-------2--------|-2-------2--------|-7----------------|
A-2-------2--------|-2-------2--------|-2-------2--------|-7----------------|
E-0-------0--------|-0-------0--------|-0-------0--------|-5----------------|

Yeah, yeah, yeah,
ye..
Guitar 1


E------------------|------------------|------------------|------------------|
B------------------|------------------|------------------|------------------|
G------------------|------------------|------------------|------------------|
D-2---2-5----------|-2---2-5----------|-2---2-5----------|-7---7-5--7--5----|
A-2---2-5----------|-2---2-5----------|-2---2-5----------|-7---7-5--7--5----|
E-0---0-3---5-6-7--|-0---0-3---5-6-7--|-0---0-3---5-6-7--|-5---5-3--5--3----|

…………………………….ah yeah
Guitar 1


E------------------|------------------|------------------|------------------|
B------------------|------------------|------------------|------------------|
G------------------|------------------|------------------|------------------|
D-2---2-5----------|-2---2-5----------|-2---2-5----------|-7---7-5--7--5----|
A-2---2-5----------|-2---2-5----------|-2---2-5----------|-7---7-5--7--5----|
E-0---0-3---5-6-7--|-0---0-3---5-6-7--|-0---0-3---5-6-7--|-5---5-3--5--3----|

Verse 1 Guitar 1


E------------------|------------------|------------------|------------------|
B------------------|------------------|------------------|------------------|
G------------------|------------------|------------------|------------------|
D-2--2-------------|-2--2-------------|-2--2-------------|-7---7-5--7--5----|
A-2--2-------------|-2--2-------------|-2--2-------------|-7---7-5--7--5----|
E-0--0-------------|-0--0-------------|-0--0-------------|-5---5-3--5--3----|

I saw the devil The contrary man I saw the devil
down a long long road


E------------------|------------------|------------------|------------------|
B------------------|------------------|------------------|------------------|
G------------------|------------------|------------------|------------------|
D-2--2-------------|-2--2-------------|-2--2-------------|-7---7-5--7--5----|
A-2--2-------------|-2--2-------------|-2--2-------------|-7---7-5--7--5----|
E-0--0-------------|-0--0-------------|-0--0-------------|-5---5-3--5--3----|

He said to me boy He said to me boy He said to me boy I want your soul


E------------------|------------------|------------------|------------------|
B------------------|------------------|------------------|------------------|
G------------------|------------------|------------------|------------------|
D-2--2-5-----------|-2--2-5-----------|-2-2--5-----------|-7---7-5--7--5----|
A-2--2-5-----------|-2--2-5-----------|-2-2--5-----------|-7---7-5--7--5----|
E-0--0-3----5-6-7--|-0--0-3----5-6-7--|-0-0--3----5-6-7--|-5---5-3--5--3----|

I said no I said no I said no You can’t take my soul


E------------------|------------------|------------------|------------------|
B------------------|------------------|------------------|------------------|
G------------------|------------------|------------------|------------------|
D-2--2-5-----------|-2--2-5-----------|-2-2--5-----------|-7---7-5--7--5----|
A-2--2-5-----------|-2--2-5-----------|-2-2--5-----------|-7---7-5--7--5----|
E-0--0-3----5-6-7--|-0--0-3----5-6-7--|-0-0--3----5-6-7--|-5---5-3--5--3----|

No I said no I said no no You can’t take my soul
Verse 2 Guitar 1


E------------------|------------------|------------------|------------------|
B------------------|------------------|------------------|------------------|
G------------------|------------------|------------------|------------------|
D-2--2-------------|-2--2-------------|-2--2-------------|-7---7-5--7--5----|
A-2--2-------------|-2--2-------------|-2--2-------------|-7---7-5--7--5----|
E-0--0-------------|-0--0-------------|-0--0-------------|-5---5-3--5--3----|

I took a while Thought about it Down at the crossroads tempting fate


E------------------|------------------|------------------|------------------|
B------------------|------------------|------------------|------------------|
G------------------|------------------|------------------|------------------|
D-2--2-------------|-2--2-------------|-2--2-------------|-7---7-5--7--5----|
A-2--2-------------|-2--2-------------|-2--2-------------|-7---7-5--7--5----|
E-0--0-------------|-0--0-------------|-0--0-------------|-5---5-3--5--3----|

I took a while Thought about it Down at the crossroads tempting fate


E------------------|------------------|------------------|------------------|
B------------------|------------------|------------------|------------------|
G------------------|------------------|------------------|------------------|
D-2--2-5-----------|-2--2-5-----------|-2--2-5-----------|-7---7-5--7--5----|
A-2--2-5-----------|-2--2-5-----------|-2--2-5-----------|-7---7-5--7--5----|
E-0--0-3----5-6-7--|-0--0-3----5-6-7--|-0--0-3----5-6-7--|-5---5-3--5--3----|

Said Yeah Yeah Yeah you can take my soul


E------------------|------------------|------------------|------------------|
B------------------|------------------|------------------|------------------|
G------------------|------------------|------------------|------------------|
D-2--2-5-----------|-2--2-5-----------|-2-2--5-----------|-7---7-5--7--5----|
A-2--2-5-----------|-2--2-5-----------|-2-2--5-----------|-7---7-5--7--5----|
E-0--0-3----5-6-7--|-0--0-3----5-6-7--|-0-0--3----5-6-7--|-5---5-3--5--3----|

Yeah Yeah Yeah you can take my soul


E------------------|------------------|------------------|------------------|
B------------------|------------------|------------------|------------------|
G------------------|------------------|------------------|------------------|
D-7---7-5--7--5----|-7---7-5--7--5----|-2----------------|-(2)--------------|
A-7---7-5--7--5----|-7---7-5--7--5----|-2----------------|-(2)--------------|
E-5---5-3--5--3----|-5---5-3--5--3----|-0----------------|-(0)--------------|

Take my soul I want it all yeah

Solo Guitar 1


E------------------|------------------|------------------|------------------|
B------------------|------------------|------------------|------------------|
G------------------|------------------|------------------|------------------|
D------------------|------------------|------------------|------------------|
A------------------|------------------|------------------|------------------|
E------------------|------------------|------------------|------------------|

| | | |
Guitar 2 | | | |
E | G E G E A B | B | B |


E------------------|------------------|------------------|------------------|
B------------------|------------------|------------------|------------------|
G------------------|-------------2--4-|-4-4-4-4--4-4-4-4-|-4-4-4-4--4-4-4-4-|
D-2----------------|-5--2--5--2--2--4-|-4-4-4-4--4-4-4-4-|-4-4-4-4--4-4-4-4-|
A-2----------------|-5--2--5--2--0--2-|-2-2-2-2--2-2-2-2-|-2-2-2-2--2-2-2-2-|
E-0----------------|-3--0--3--0-------|------------------|------------------|

Guitar 1


E------------------|------------------|------------------|------------------|
B------------------|------------------|------------------|------------------|
G------------------|------------------|------------------|------------------|
D------------------|------------------|------------------|------------------|
A------------------|------------------|------------------|------------------|
E------------------|------------------|------------------|------------------|

| | | |
Guitar 2 | | | |
B | G E G E A B | B | B |


E------------------|------------------|------------------|------------------|
B------------------|------------------|------------------|------------------|
G-4-4-4-4--4-4-4-4-|-------------2--4-|-4-4-4-4--4-4-4-4-|-4-4-4-4--4-4-4-4-|
D-4-4-4-4--4-4-4-4-|-5--2--5--2--2--4-|-4-4-4-4--4-4-4-4-|-4-4-4-4--4-4-4-4-|
A-2-2-2-2--2-2-2-2-|-5--2--5--2--0--2-|-2-2-2-2--2-2-2-2-|-2-2-2-2--2-2-2-2-|
E------------------|-3--0--3--0-------|------------------|------------------|

Guitar 1


E------------------|------------------|------------------|------------------|
B------------------|------------------|------------------|------------------|
G------------------|------------------|------------------|------------------|
D------------------|------------------|------------------|------------------|
A------------------|------------------|------------------|------------------|
E------------------|------------------|------------------|------------------|

| | | |
Guitar 2 | | | |
B | D B D B Eb E | E | E |


E------------------|------------------|------------------|------------------|
B------------------|------------------|------------------|------------------|
G-4-4-4-4--4-4-4-4-|-7--4--7--4--8--9-|-9-9-9-9--9-9-9-9-|-9-9-9-9--9-9-9-9-|
D-4-4-4-4--4-4-4-4-|-7--4--7--4--8--9-|-9-9-9-9--9-9-9-9-|-9-9-9-9--9-9-9-9-|
A-2-2-2-2--2-2-2-2-|-5--2--5--2--6--7-|-7-7-7-7--7-7-7-7-|-7-7-7-7--7-7-7-7-|
E------------------|------------------|------------------|------------------|

Guitar 1


E------------------|------------------|------------------|------------------|
B------------------|------------------|------------------|------------------|
G------------------|------------------|------------------|------------------|
D------------------|------------------|------------------|------------------|
A------------------|------------------|------------------|------------------|
E------------------|------------------|------------------|------------------|

| | | |
Guitar 2 | | | |
E | G E G E A B | B | B |


E------------------|------------------|------------------|------------------|
B------------------|------------------|------------------|------------------|
G-9-9-9-9--9-9-9-9-|-------------2--4-|-4-4-4-4--4-4-4-4-|-4-4-4-4--4-4-4-4-|
D-9-9-9-9--9-9-9-9-|-5--2--5--2--2--4-|-4-4-4-4--4-4-4-4-|-4-4-4-4--4-4-4-4-|
A-7-7-7-7--7-7-7-7-|-5--2--5--2--0--2-|-2-2-2-2--2-2-2-2-|-2-2-2-2--2-2-2-2-|
E------------------|-3--0--3--0-------|------------------|------------------|

Guitar 1


E------------------|------------------|------------------|------------------|
B------------------|------------------|------------------|------------------|
G------------------|------------------|------------------|------------------|
D------------------|------------------|------------------|------------------|
A------------------|------------------|------------------|------------------|
E------------------|------------------|------------------|------------------|

| | | |
Guitar 2 | | | |
B | A G A G F# A | E | E E |


E------------------|------------------|------------------|------------------|
B------------------|------------------|------------------|------------------|
G-4-4-4-4--4-4-4-4-|------------------|------------------|------------------|
D-4-4-4-4--4-4-4-4-|-7--5--7--5--4--2-|-2----------------|-2-2--------------|
A-2-2-2-2--2-2-2-2-|-7--5--7--5--4--2-|-2----------------|-2-2--------------|
E------------------|-5--3--5--3--2--0-|-0----------------|-0-0--------------|

Guitar 1


E------------------|------------------|------------------|------------------|
B------------------|------------------|------------------|------------------|
G------------------|------------------|------------------|------------------|
D------------------|------------------|------------------|------------------|
A------------------|------------------|------------------|------------------|
E------------------|------------------|------------------|------------------|

| | | |
Guitar 2 | | | |
E E | A A G A G | E E | E E |


E------------------|------------------|------------------|------------------|
B------------------|------------------|------------------|------------------|
G------------------|------------------|------------------|------------------|
D-2-2--------------|-7---7-5--7--5----|-2-2--------------|-2-2--------------|
A-2-2--------------|-7---7-5--7--5----|-2-2--------------|-2-2--------------|
E-0-0--------------|-5---5-3--5--3----|-0-0--------------|-0-0--------------|

Guitar 1


E------------------|------------------|------------------|------------------|
B------------------|------------------|------------------|------------------|
G------------------|------------------|------------------|------------------|
D------------------|------------------|------------------|------------------|
A------------------|------------------|------------------|------------------|
E------------------|------------------|------------------|------------------|

| | | |
Guitar 2 | | | |
E E | A A G A G | E E | E E |


E------------------|------------------|------------------|------------------|
B------------------|------------------|------------------|------------------|
G------------------|------------------|------------------|------------------|
D-2-2--------------|-7---7-5--7--5----|-2-2--------------|-2-2--------------|
A-2-2--------------|-7---7-5--7--5----|-2-2--------------|-2-2--------------|
E-0-0--------------|-5---5-3--5--3----|-0-0--------------|-0-0--------------|

Guitar 1


E------------------|------------------|------------------|------------------|
B------------------|------------------|------------------|------------------|
G------------------|------------------|------------------|------------------|
D------------------|------------------|------------------|------------------|
A------------------|------------------|------------------|------------------|
E------------------|------------------|------------------|------------------|

| | | |
Guitar 2 | | | |
E E | A A G A G | E E | E E |


E------------------|------------------|------------------|------------------|
B------------------|------------------|------------------|------------------|
G------------------|------------------|------------------|------------------|
D-2-2--------------|-7---7-5--7--5----|-2-------2--------|-2-------2--------|
A-2-2--------------|-7---7-5--7--5----|-2-------2--------|-2-------2--------|
E-0-0--------------|-5---5-3--5--3----|-0-------0--------|-0-------0--------|

Guitar 1


E------------------|------------------|------------------|------------------|
B------------------|------------------|------------------|------------------|
G------------------|------------------|------------------|------------------|
D------------------|------------------|-2-2-5------------|-2-2-5------------|
A------------------|------------------|-2-2-5------------|-2-2-5------------|
E------------------|------------------|-0-0-3---5-6-7----|-0-0-3---5-6-7----|

| | | |
Guitar 2 | | | |
E E | E E | E E | E E |


E------------------|------------------|------------------|------------------|
B------------------|------------------|------------------|------------------|
G------------------|------------------|------------------|------------------|
D-2-------2--------|-2-------2--------|-2-------2--------|-2-------2--------|
A-2-------2--------|-2-------2--------|-2-------2--------|-2-------2--------|
E-0-------0--------|-0-------0--------|-0-------0--------|-0-------0--------|

Guitar 1


E------------------|------------------|------------------|------------------|
B------------------|------------------|------------------|------------------|
G------------------|------------------|------------------|------------------|
D-2-2-5------------|-7----------------|-(7)--------------|-(7)--------------|
A-2-2-5------------|-7----------------|-(7)--------------|-(7)--------------|
E-0-0-3---5-6-7----|-5----------------|-(5)--------------|-(5)--------------|

| | | |
Guitar 2 | | | |
E E | A | A | A |


E------------------|------------------|------------------|------------------|
B------------------|------------------|------------------|------------------|
G------------------|------------------|------------------|------------------|
D-2-------2--------|-7----------------|-(7)--------------|-(7)--------------|
A-2-------2--------|-7----------------|-(7)--------------|-(7)--------------|
E-0-------0--------|-5----------------|-(5)--------------|-(5)--------------|

Guitar 1
A |


E------------------|
B------------------|
G------------------|
D-(7)--------------|
A-(7)--------------|
E-(5)--------------|

|
Guitar 2 |
A |


E------------------|
B------------------|
G------------------|
D-(7)--------------|
A-(7)--------------|
E-(5)--------------|

Verse 3 Guitar 1


E------------------|------------------|------------------|------------------|
B------------------|------------------|------------------|------------------|
G------------------|------------------|------------------|------------------|
D-2--2-5-----------|-2--2-5-----------|-2--2-5-----------|-7---7-5--7--5----|
A-2--2-5-----------|-2--2-5-----------|-2--2-5-----------|-7---7-5--7--5----|
E-0--0-3----5-6-7--|-0--0-3----5-6-7--|-0--0-3----5-6-7--|-5---5-3--5--3----|

Zany antics of a beat generation in their wild search for kicks


E------------------|------------------|------------------|------------------|
B------------------|------------------|------------------|------------------|
G------------------|------------------|------------------|------------------|
D-2--2-5-----------|-2--2-5-----------|-2--2-5-----------|-7---7-5--7--5----|
A-2--2-5-----------|-2--2-5-----------|-2--2-5-----------|-7---7-5--7--5----|
E-0--0-3----5-6-7--|-0--0-3----5-6-7--|-0--0-3----5-6-7--|-5---5-3--5--3----|

Fighting drinking scorning convention making wild love making wild love


E------------------|------------------|------------------|------------------|
B------------------|------------------|------------------|------------------|
G------------------|------------------|------------------|------------------|
D-2--2-5-----------|-2--2-5-----------|-2--2-5-----------|-7---7-5--7--5----|
A-2--2-5-----------|-2--2-5-----------|-2--2-5-----------|-7---7-5--7--5----|
E-0--0-3----5-6-7--|-0--0-3----5-6-7--|-0--0-3----5-6-7--|-5---5-3--5--3----|

I saw the devil The contrary man I saw the devil
down a long long road


E------------------|------------------|------------------|------------------|
B------------------|------------------|------------------|------------------|
G------------------|------------------|------------------|------------------|
D-2--2-5-----------|-2--2-5-----------|-2--2-5-----------|-7---7-5--7--5----|
A-2--2-5-----------|-2--2-5-----------|-2--2-5-----------|-7---7-5--7--5----|
E-0--0-3----5-6-7--|-0--0-3----5-6-7--|-0--0-3----5-6-7--|-5---5-3--5--3----|

He said to me boy He said to me boy He said to me boy I want your soul


E------------------|------------------|------------------|------------------|
B------------------|------------------|------------------|------------------|
G------------------|------------------|------------------|------------------|
D-2--2-5-----------|-2--2-5-----------|-2--2-5-----------|-7---7-5--7--5----|
A-2--2-5-----------|-2--2-5-----------|-2--2-5-----------|-7---7-5--7--5----|
E-0--0-3----5-6-7--|-0--0-3----5-6-7--|-0--0-3----5-6-7--|-5---5-3--5--3----|

I said yeah, I said yeah, I said yeah, yeah, yeah, yeah


E------------------|------------------|------------------|------------------|
B------------------|------------------|------------------|------------------|
G------------------|------------------|------------------|------------------|
D-2--2-5-----------|-2--2-5-----------|-2--2-5-----------|-7---7-5--7--5----|
A-2--2-5-----------|-2--2-5-----------|-2--2-5-----------|-7---7-5--7--5----|
E-0--0-3----5-6-7--|-0--0-3----5-6-7--|-0--0-3----5-6-7--|-5---5-3--5--3----|

yeah, yeah, yeah, yeah, yeah, yeah, yeah,


E------------------|------------------|------------------|------------------|
B------------------|------------------|------------------|------------------|
G------------------|------------------|------------------|------------------|
D-7---7-5--7--5----|-7---7-5--7--5----|-2----------------|------------------|
A-7---7-5--7--5----|-7---7-5--7--5----|-2----------------|------------------|
E-5---5-3--5--3----|-5---5-3--5--3----|-0----------------|------------------|

I want it all I want it all yeah

To play the this songs, including King Contrary Man by The Cult by ukulele, the most crucial basic ukulele chords to learn are C chord, D chord, G chord, and Em chord.
These set you up to play a ton of songs, and each of them is easy to learn.

If you are searching for Hà Nội Hà nội ukulele chords, you’ve visit to the best place.
You can play versatile instrument Hà Nội Hà nội using ukulele or guitar.
This song by Đinh Mạnh Ninh can also be played by that instruments.
=

Hà Nội Hà nội chords has rhythm and included in album.
You can also find other musical style, including jazz ukulele chords, country music ukulele chords, pop ukulele chords, world music ukulele chords, and rock ukulele chords here.

Hà Nội Hà nội by Đinh Mạnh Ninh Ukulele Chords


1. Nắng lên
Hơi đen nhẹ tan dòng sông một ngày mới về
Xuân sang nhẹ tan nụ hoa nào còn đẫm sương
Bỗng thấy xinh ghê cô em cười môi cười sao thật tươi trong nắng mai.

Sớm nay
Nghe trên đường vang bài ca từ lâu đã thuộc
Cụ già bỗng thấy nhớ năm nao đôi mươi
Khi ra Hồ Gươm mỗi sớm trông theo niềm vui của đám trẻ
Hà nội ơi sao nghe niềm vui mỗi khi bình minh.

Hà Nội ơi
Ai quen ngồi ăn một góc phố
Ai ..ung dung một bác lao công vừa hết ca
Tôi nghe niềm vui thật quen mà cũng thật lạ.
Hà Nội ơi yêu thương từ những góc thân thuộc quanh ta

ĐK:Hà Nội ơi yêu biết bao mái nhà
Còn đó không em một chút dư âm nhìn cửa ô rêu phong
Tiếng chuông chiều qua vang trên phố dài
Có thương mùa thu em hương hoa sữa
Từng đêm gió Hồ Tây lung linh bên nhau đôi ta hẹn

Hà Nội ơi yêu biết bao con người
Từng ngày tháng trôi qua còn đó trên môi nụ cười không xa xôi
Tiếng dương cầm em hôm qua vẫn buồn
Bỗng dưng ngày hôm nay sao vui thế
Và anh sẽ để mãi trong tim dù anh đi xa Hà Nội ơi

2. Ánh đèn
Trời đêm tối nay chen chân người đi người đứng chờ
Anh chàng tây ba lô lang thang loanh quanh
Khi ra Hồ Gươm nhìn sắc hoa bên hàng cây
Cùng ngỡ ngàng Hà Nội ấy lung linh rực rỡ mỗi khi đèn lên.

Hà Nội ơi
Ai đang đợi ai chợt nghe ngõ lặng vắng
Trà đá anh vẫn anh tôi chuyện nắng mưa
Trên ô cửa bên nhà ai còn sáng ánh đèn
Chợt ấm áp trong anh tổ ấm những giấc

ĐK:Hà Nội ơi yêu biết bao mái nhà
Còn đó không em một chút dư âm nhìn cửa ô rêu phong
Tiếng chuông chiều qua vang trên phố dài
Có thương mùa thu em hương hoa sữa
Từng đêm gió Hồ Tây lung linh bên nhau đôi ta hẹn

Tặng 1 tone lên ——

Hà Nội ơi yêu biết bao con người
Từng ngày tháng trôi qua còn đó trên môi nụ cười không xa xôi
Tiếng dương cầm em hôm qua vẫn buồn
Bỗng dưng ngày hôm nay sao vui thế
Và anh sẽ để mãi trong tim dù anh đi xa Hà Nội ơi

To play the this songs, including Hà Nội Hà nội by Đinh Mạnh Ninh by ukulele, the most crucial basic ukulele chords to learn are C chord, D chord, G chord, and Em chord.
These set you up to play a many of songs, and each of them is easy to learn.