Alone in a Crowd by Catch 22 Ukulele Chords

Posted on

If you are looking for Alone in a Crowd ukulele chords, you’ve come to the best place.
You can play versatile instrument Alone in a Crowd using ukulele or guitar.
This song by Catch 22 can also be played by that instruments.
=

Alone in a Crowd chords has rhythm and included in Alone in a Crowd (2000) album.
You can also get another musical genres, including jazz ukulele chords, country music ukulele chords, pop ukulele chords, world music ukulele chords, and rock ukulele chords here.

Alone in a Crowd by Catch 22 Ukulele Chords


-------------------------------------------------------------------------------

Alone in a Crowd – Catch 22


-------------------------------------------------------------------------------

Tabbed by: Mitch
Email: Mitch3a@gmail.com

Tuning: EADGBe


e|--------------3-----1--------0-----0---------x-------|
B|--1-----3--------0--------1-----0-----1------x-------|
G|-----0-----0-----------0---------------------x-------|
D|--------------2-----3------------------------x-------|
A|--3-----2-----------------3-----------3------x-------|
E|--------------------------------3------------x-------|

Cemetery break the stone
Mom was right, shoulda stayed at home
Seems like all the good old days are gone
Back and forth and side to side
A lonely boy, a mans disguise
Another silhouette against the sky
Overcome the obstacle of animosity
Em Am Dm fill
Take me to my old back yard, security and family

fill


e|--0-----------|
B|--0--3--------|
G|--0-----2--1--|
D|--0-----------|
A|--------------|
E|--3-----------|

When all is said and all is done Im not the only one
When all is said and all is done
Take it all for granted, I dont
mind its all been handed down to me
But ill give it back someday
Once upon a time a tale,
began on a television
now I watch it slowly spin away
Overcome the obstacle of animosity
Take me to my old back yard, security and family
When all is said and all is done Im not the only one
When all is said and all is done

(same C-Dm-F-G for piano solo)

Clean the slate, turn the page
Lonely boy has paved the way
Mom was right, I should have stayed at home
When all is said and all is done Im not the only one
When all is said and all is done Im not the only one
When all is said and all is done Im not the only one
When all is said and all is done
seems like all the good old days are gone

| / slide up
| slide down
| h hammer-on
| p pull-off
| ~ vibrato
| + harmonic
| x Mute note

To play the most songs, including Alone in a Crowd by Catch 22 by ukulele, the most crucial basic ukulele chords to learn are C chord, D chord, G chord, and Em chord.
These set you up to play a many of songs, and each of them is easy to learn.

Gravatar Image
Like to play Ukulele and Sudoku Game

Leave a Reply

Your email address will not be published. Required fields are marked *