Above All Else by Vicky Beeching Ukulele Chords

Posted on

If you are searching for Above All Else ukulele chords, you have visit to the right site.
You can play versatile instrument Above All Else using ukulele or guitar.
This song by Vicky Beeching can also be played by that instruments.
=

Above All Else chords has rhythm and included in Yesterday, Today & Forever (2006) album.
You can also find other musical style, including jazz ukulele chords, country music ukulele chords, pop ukulele chords, world music ukulele chords, and rock ukulele chords here.

Above All Else by Vicky Beeching Ukulele Chords


Above all else – Vicky Beeching

Tabbed by:Kaitenz

Chords Used.
[D/F#] [D2/F#] [D/G]


e|-0----0---0---0---2----0----2---0---3-----------|
B|-3----3---0---3---3----3----3---3---3-----------|
G|-2----2---0---0---2----2----2---2---0-----------|
D|-0----0---2---2---0----0----0---2---0-----------|
A|-x----2---2---2---x----x----x---0---2-----------|
E|-x----0---x---x---2----2----3---x---3-----------|

How its being played.
[D/F#]


e|-------------------------------------------------------|
B|----3-------3--------3-2----3-2------------3-----------|
G|---2--0----2--0----------------------0----2------------|
D|--0-------0--------0-------0--------2----0-------------|
A|-----------------2--------2--------2-------------------|
E|----------------------------------0-----2--------------|


e|-----------0-----------------------------------|
B|----3--------3------3--------------------------|
G|---0---------------2--0------------------------|
D|--0------2--------0----------------------------|
A|--------0--------------------------------------|
E|-3---------------------------------------------|

Key: D
Intro: D2 Bm Em D/F# G Asus D2
( Tab from: http://www.guitartabs.cc/tabs/v/vicky_beeching/above_all_else_tab.html )
Verse 1:
Jesus my passion in life is to know You
May all other goals bow down t[D/F#]o
This journey of loving You more

Verse 2:
Jesus You’ve showered Your goodness on me
Given Your gifts so freely[D/F#]
But there’s one thing I’m longing for

Verse 3:
Savior the more I see your beauty
The more that I glimpse your gl[D/F#]ory
My heart is captured by you.

Verse 4:
Jesus you are my greatest treasure
Nothing this world can of[D/F#]fer
Could ever compare to you

PreChorus:
Hear my heart’s cry[D/F#]
And my prayer for this life

Chorus:(Can either strum or pluck)
[D/G]Above all else[D2/F#]
Above all else
[D/G]Above all else[D2/F#]
Give me Yourself

| / slide up
| slide down
| h hammer-on
| p pull-off
| ~ vibrato
| + harmonic
| x Mute note

To play the most songs, including Above All Else by Vicky Beeching by ukulele, the most important basic ukulele chords to learn are C chord, D chord, G chord, and Em chord.
These set you up to play a ton of songs, and each of them is easy to learn.

Gravatar Image
Like to play Ukulele and Sudoku Game

Leave a Reply

Your email address will not be published. Required fields are marked *